Headlong

Pro muzikanty..
Tabs, scores, chords - for musicians..

Moderátor: Admins

Odpovědět
Uživatelský avatar
Pomeranč
Příspěvky: 8
Registrován: 09.11.2008, 12:15:17

Headlong

Příspěvek od Pomeranč » 10.11.2008, 18:34:36

Ladění: DADF#GAD

rytmus a střídání akordů se snažte odposlouchat.. není to nikterak těžké.

//tuto "sadu" hrajeme napříč slokou :

D |--0-----0-----0----0--|
A |--0-----2-----4----2--|
F# |--0-----0-----0----0--|
D |--0-----0-----0----0--|
A |--0-----2-----4----2--|
D |--0-----0-----0----0--|

Well I never want to land
couse I'm high on you
beyond all slight of hand...

-----------------------------

//pak přijde baréčko:

2x

D |--5----5----|
A |--5----5----|
F# |--7----5----|
D |--7----7----|
A |--5----5----|
D |--5----5----|

-----------------------------


//následuje druhá sloka, která se hraje stejně jako první, ale při hraní baréček začneme zpívat: 'Couse you're all I really want..'


//pak přijde tato "sada" zpívá se 'Headlong.. I'm falling....' :

D |--0-----0-----0----0----0---0--7|
A |--0-----2-----4----2----4---5--7|
F# |--0-----0-----0----0----0---0--0|
D |--0-----0-----0----0----0---0--0|
A |--0-----2-----4----2----4---5--7|
D |--0-----0-----0----0----0---0--0|

2x

D |--5----5----|
A |--5----5----|
F# |--7----5----|
D |--7----7----|
A |--5----5----|
D |--5----5----|



//a poslední věc je ta vybrnkávací věcička:

D |------------------------------------------------------------------------------------------------------------------ |--5----5----||
A |------------------------------------------------------------------------------------------------------------------ |--5----5----||
F# |------------------------------------------------------------------------------------------------------------------ |--7----5----||
D |---------------------7----4---------------------------------------------------------7--4-------5-\-7------------- |--7----7----||
A |---------5-----4---------------5----4-----------7---5------------------5---4------------------------------------- |--5----5----||
D |--0-----------------------------------------------------------------0--------------------------------------------- |--5----5----||

Uživatelský avatar
Pomeranč
Příspěvky: 8
Registrován: 09.11.2008, 12:15:17

Re: Headlong

Příspěvek od Pomeranč » 10.11.2008, 18:41:32

Ješče jsem zapomněl na slova:

well I never want to land
cause I'm high on you
beyond all slight of hand
tell me if you're sure
and I won't pretend
to fall down anymore
cause you're all I really want

headlong
I'm falling in a headlong

and act a little brave
and the lies that try to trip you
you're not a slave
and tell me if you're sure
and the precious precious waiting
I endure
cause you're all I'll ever want

headlong
I'm falling in a headlong
headlong
I'm falling in a headlong
headlong...

Uživatelský avatar
Pomeranč
Příspěvky: 8
Registrován: 09.11.2008, 12:15:17

Re: Headlong

Příspěvek od Pomeranč » 22.11.2008, 19:16:38

Jo a jináč je to má autorská verze. Sepsal jsem to, protože jsem na netu našel vůkol jen tu jednu tabulaturu s droplým davidem a ta je špatná :o)

Odpovědět

Kdo je online

Uživatelé prohlížející si toto fórum: Žádní registrovaní uživatelé a 1 host